Воскресенье, 29.11.2020, 07:26
Популярные аккорды
   Аккорды песен Башкирия (3692)
   Аккорды песен 5nizza - Пятница (2889)
   Аккорды песен Я у девушка юный бил ночью в гостях... (2282)
   Аккорды песен Вот идет караван... (2221)
   Аккорды песен Лесоповал - Я куплю тебе дом (Белый лебедь) (2117)
   Аккорды песен Дворовые песни - Казахи (1961)
   Аккорды песен Тема из к/ф "Джентльмены удачи" (1723)
   Аккорды песен Дoждь cтyчит пo кpышaм, cлoвнo мнe нaзлo (1672)
   Аккорды песен Агата Кристи - Как на войне (1584)
   Аккорды песен Кабриолет - Цепи (1555)
Поиск
Статистика

Добавлено аккордов: 2102



Аккорды к песням нашим


0-9 - A - B - C - D - E - F - G - H - I - J - K - L - M - N - O - P - Q - R - S - T - U - V - W - X - Y - Z
А - Б - В - Г - Д - Е - Ж - З - И - К - Л - М - Н - О - П - Р - С - Т - У - Ф - Х - Ц - Ч - Ш - Щ - Э - Ю - Я

Аккорд песни Megadeth - The Killing Road
Просмотров: 191
Дата добавления: 08.09.2010
Категория: M
Опустить строй 1/2 тона
~~~-vibrato
pm - mute
-slide


Riff 1
Gtr1 ~~~~
||-------------------|------------------||
||-------------------|------------------||
||*------------------|-----------------*||
||*------------------|-----------------*||
||-------7-----8-----|-7-----8---5------||
||--0-0----0-0---0-0-|---0-0---0--------||
pm* * * * * * * * *

Gtr2 with riff 1 ~~~~
||-------------------|------------------||
||-------------------|------------------||
||*------------------|-----------------*||
||*-----9-----10-----|9-----10---7-----*||
||-------------------|------------------||
||--0-0---0-0----0-0-|--0-0----0--------||
pm* * * * * * * * *


verse:

Rhy.fig 1 end r.fig 1
1 2
|------------------|------------------|
~~ | | |
||------------------|--------------------|-----------------|------------------|-----------------||
||------------------|--------------------|-----------------|------------------|-----------------||
||*-----------------|--------------------|-----------------|-------5-------4-*|-------5-------4-||
||*-----------------|------------5-------|----3-----3---3-|-----5-------4---*|---2-5-----1-4---||
||------7-----8-----|-7---5--------------|-----------------|---7-------6------|-3-------2-------||
||--0-0---0-0---0-0-|---8---7------3-2---|-1-1--1-1---1----|-8-------7--------|-----------------||
pm* * * * * * * * * * * * * * * * * * * * * * * * * *


Chorus:

gtr1&2

Rhy.fig 2 end r.fig 2
|--------------------|------------------|
|--------------------|------------------|
|*-------------------|-----------------*|
|*--------9----------|-----------------*|
|---------7-----9----|--8----5----3--2--|
|--0------------7----|--6----3----1--0--|
pm *

interlude

Gtr 1&2
~~~
|------------------|-------------------|------------------|-----------------|
|------------------|-------------------|------------------|-----------------|
|------------------|-------------------|------------------|-------5-------4-|
|------------------|-------------5-----|------------------|-----5-------4---|
|------7-----8-----|-7---5-------------|-----3-----3---3-|---7-------6-----|
|----0---0-0---0-0-|---8---7-------3-2-|-1-1---1-1---1----|-8-------7-------|
pm * * * * * * * * * * * * * * * * * * *




~~~~
|-----------------|-------------------|-----------------|-----------------|
|-----------------|-------------------|-----------------|-----------------|
|-----------------|-------------------|-----------------|-----------------|
|-----------------|-------------5-----|-----------------|-----------------|
|-----7-----8-----|-7---5-------------|-7-8---5-7---3-5-|---2-3---2-2-0-4-|
|-0-0---0-0---0-0-|---8---7-------3-2-|-----0-----0-----|-0-----0-------2-|
pm* * * * * * * * * * *


rhytm (Gtr 3 play solo)
Gtr 1&2

|------------------|------------------|-------------------|--------------------|
|------------------|------------------|-------------------|--------------------|
|*-----------------|------------------|-------------------|-------------------*| x4 then
|*-----------------|------------------|-------------------|-------------------*|
|----4-----------4-|---4---4---5---2--|---2-------------5-|--------5--------4--|
|----2-2-2-2-2-2-2-|---2---2---3---0--|---0-0-0-0-0---0-3-|----0-0-3----0-0-2--|
pm* * * * * * * * * * * * *



|-----------------|------------------|-------------------|--------------------|---------------|
|-----------------|------------------|-------------------|--------------------|---------------|
|-----------------|------------------|-------------------|--------------------|---------------|
|-----------------|------------------|-------------------|--------------------|---------------|
|---4-----------4-|---4---4---5---2--|---2-------------5-|--------5--------4--|----------4----|
|---2-2-2-2-2-2-2-|---2---2---3---0--|---0-0-0-0-0---0-3-|----0-0-3----0-0-2--|----------2----|


|-----------------|
|-----------------|
|-----------------|
|-----------------| then Gtr 1&2 play Rhy.fig 1, 2times and solo ending
|--4---4---5---2--|
|--2---2---3---0--|

Outro:
Gtr 1&2 Rhy.fig 2, 8times
Megadeth - The Killing Road аккорд песни