Понедельник, 28.09.2020, 17:52
Популярные аккорды
   Аккорды песен Башкирия (3666)
   Аккорды песен 5nizza - Пятница (2845)
   Аккорды песен Я у девушка юный бил ночью в гостях... (2236)
   Аккорды песен Вот идет караван... (2191)
   Аккорды песен Лесоповал - Я куплю тебе дом (Белый лебедь) (2091)
   Аккорды песен Дворовые песни - Казахи (1929)
   Аккорды песен Тема из к/ф "Джентльмены удачи" (1690)
   Аккорды песен Дoждь cтyчит пo кpышaм, cлoвнo мнe нaзлo (1649)
   Аккорды песен Агата Кристи - Как на войне (1558)
   Аккорды песен Кабриолет - Цепи (1527)
Поиск
Статистика

Добавлено аккордов: 2102



Аккорды к песням нашим


0-9 - A - B - C - D - E - F - G - H - I - J - K - L - M - N - O - P - Q - R - S - T - U - V - W - X - Y - Z
А - Б - В - Г - Д - Е - Ж - З - И - К - Л - М - Н - О - П - Р - С - Т - У - Ф - Х - Ц - Ч - Ш - Щ - Э - Ю - Я

Аккорд песни Muse - Plug In Baby
Просмотров: 193
Дата добавления: 08.09.2010
Категория: M
1.----------------------------------------------------------
2.----------------------------------------------------------
3.--------------5-----5-7-78-7-5-------------------5-----5-7
4.--5-7-8-5-7-8---7-8------------8-7---5-7-8-5-7-8---7-8----
5.----------------------------------------------------------
6.----------------------------------------------------------

1.---------------------------------------------------------
2.---------------------------------------------------------
3.-78-7-5-7-5--7------7-9-10-9-7-6-7-5-5-0-----------------
4.-----------------0---------------------------------------
5.---------------------------------------------------------
6.---------------------------------------------------------

ЭТО ОСНОВНАЯ ЧАСТЬ ПЕСНИ
Muse - Plug In Baby аккорд песни