Воскресенье, 27.09.2020, 09:57
Популярные аккорды
   Аккорды песен Башкирия (3664)
   Аккорды песен 5nizza - Пятница (2845)
   Аккорды песен Я у девушка юный бил ночью в гостях... (2234)
   Аккорды песен Вот идет караван... (2190)
   Аккорды песен Лесоповал - Я куплю тебе дом (Белый лебедь) (2090)
   Аккорды песен Дворовые песни - Казахи (1928)
   Аккорды песен Тема из к/ф "Джентльмены удачи" (1689)
   Аккорды песен Дoждь cтyчит пo кpышaм, cлoвнo мнe нaзлo (1649)
   Аккорды песен Агата Кристи - Как на войне (1558)
   Аккорды песен Кабриолет - Цепи (1525)
Поиск
Статистика

Добавлено аккордов: 2102



Аккорды к песням нашим


0-9 - A - B - C - D - E - F - G - H - I - J - K - L - M - N - O - P - Q - R - S - T - U - V - W - X - Y - Z
А - Б - В - Г - Д - Е - Ж - З - И - К - Л - М - Н - О - П - Р - С - Т - У - Ф - Х - Ц - Ч - Ш - Щ - Э - Ю - Я

Аккорд песни Nick Cave - Into My Arms
Просмотров: 263
Дата добавления: 08.09.2010
Категория: N
 Интро: G C F...F^F C...C^C

^ - "хаммер" на 2-ой сируне (открытая "b"->"c" на первом ладу)
Я делаю это примерно так:

G5 C/GF F^ F F*F C/G C^ C G5 C/G F...
e|-3--0--1--1-1--1-1-0--1--1-1-0-1---0--0-0--0-0-0--0--0-0-|
B|-3--1--1--1-1--1-1-0--1--1-1-0-1---1--1-1--1-1-0--1--1-1-|
G|-0--0--2--2-2--2-2-2--2--2-2-2-2---0--0-0--0-0-0--0--0-0-|
D|-0--2--3--3-3--2-3-3--3--3-3-3-3---2--2-2--2-2-2--2--2-2-|
A|-2--3--3--3-3--3-3-3--3--3-3-3-3---3--3-3--3-3-3--3--3-3-|
E|-3--3--1--1-1--1-1(0)-1--1-1(0)1---3--3-3--3-3-3--3--3-3-|

F*-без "хаммера"
Note: F^-(небольшая пауза)-F
C^-(небольшая пауза)-C

Вы можете варьировать звучание по собственному вкусу.


G5 C/G F (F^F) C (C^C)
I don´t believe in an interventionist God
G5 C/G F (F^F) C (C^C)
But I know, darling, that you do
G5 C/G F (F^F) C (C^C)
But if I did I would kneel down and ask Him
G5 C/G F C (C^C)
Not to intervene when it came to you
C F
Not to touch a hair on your head
Dm
To leave you as you are
G
And if He felt He had to direct you
Em G
Then direct you into my arms

Припев можно играть двумя способами:1) с "хаммерами", "пуллами"
и "слайдами"; 2) без них.

Первый:
Dm C/G
e|-3^1-0^1-1--1-1--1-1-0^^1--1-1-|-1^0-----0--0-0--0-0-0-----0-0-|
B|---------3--3-3--3-3-3-----3-3-|-----3/5-1--1-1--1-1-0^^1--1-1-|
G|---------2--2-2--2-2-2-----2-2-|---------0--0-0--0-0-0-----0-0-|
D|---------0--0-0--0-0-0-----0-0-|---------2--2-2--2-2-2-----2-2-|
A|--------(0)(0-0)(0-0-0)---(0-0)|---------3--3-3--3-3-3-----3-3-|
E|-------------------------------|---------3--3-3--3-3-3-----3-3-|

Второй:
Dm C/G
In to my-y arms Oh,Lord In to my-y arms Oh,Lord
e|-3--1--0--1-1--1-1--1-1-0^^1--1-1-|-1--0-----0-0--0-0--0-0-0-----0-0-|
B|------------3--3-3--3-3-3-----3-3-|-------3----1--1-1--1-1-0^^1--1-1-|
G|------------2--2-2--2-2-2-----2-2-|------------0--0-0--0-0-0-----0-0-|
D|------------0--0-0--0-0-0-----0-0-|------------2--2-2--2-2-2-----2-2-|
A|-----------(0)(0-0)(0-0-0)---(0-0)|------------3--3-3--3-3-3-----3-3-|
E|----------------------------------|------------3--3-3--3-3-3-----3-3-|

aleister
Russia, Иркутск
Nick Cave - Into My Arms аккорд песни