Среда, 30.09.2020, 12:24
Популярные аккорды
   Аккорды песен Башкирия (3666)
   Аккорды песен 5nizza - Пятница (2847)
   Аккорды песен Я у девушка юный бил ночью в гостях... (2236)
   Аккорды песен Вот идет караван... (2192)
   Аккорды песен Лесоповал - Я куплю тебе дом (Белый лебедь) (2092)
   Аккорды песен Дворовые песни - Казахи (1930)
   Аккорды песен Тема из к/ф "Джентльмены удачи" (1691)
   Аккорды песен Дoждь cтyчит пo кpышaм, cлoвнo мнe нaзлo (1649)
   Аккорды песен Агата Кристи - Как на войне (1559)
   Аккорды песен Кабриолет - Цепи (1528)
Поиск
Статистика

Добавлено аккордов: 2102



Аккорды к песням нашим


0-9 - A - B - C - D - E - F - G - H - I - J - K - L - M - N - O - P - Q - R - S - T - U - V - W - X - Y - Z
А - Б - В - Г - Д - Е - Ж - З - И - К - Л - М - Н - О - П - Р - С - Т - У - Ф - Х - Ц - Ч - Ш - Щ - Э - Ю - Я

Аккорд песни No Mercy - Where Do You Go
Просмотров: 206
Дата добавления: 08.09.2010
Категория: N
Chorus:
C# Bm F#
Where do you go, my lovely,
G#
Where do you go.
C# Bm F#
I wanna know, my lovely,
G#
I wanna know.
Bm G#
Where do you go, oh oh eh oh,
Bm G#
I wanna know, oh oh eh oh
Bm
Where do you go,
G#
Oh oh eh oh oh eh oh oh eh oh...
Bm
I wanna know.

C# F# H
Where do you, where do you go...
C# F# H
Where do you, where do you go...

Bm
You leave without a word,
G# Bm
No message, no number.
And now my head is pounding
G#
like rolling thunder.
Bm
You left me with a heartache deep inside
G#
Girl you should see me cry all night, and I wonder...

Bm
Everybody says, what a shame, what is wrong
F# G#
They don't like the game we play
Bm
Heard you're hanging round every night until dawn
F# G#
I'm waiting for you night and day

Chorus.

You gotta break the silence,
Don't keep me waiting.
Just like a river flowing to the sea,
You're running back to me
Come hear what I'm saying...

C# Bm F# G#
Where do you go, my lovely,

C# Bm F# G#

Bm
Where do you go,
G#
Oh oh eh oh oh eh oh oh eh oh...
NC
Where do you go,
Bm G#
Oh oh eh oh oh eh oh oh eh oh...
Bm D#m C# G# Bm D#m C# G#
I wanna know...

C# F# H
Where do you, where do you go...
C# F# H C#
Where do you, where do you go...

Save me...

Bm
Come back and dry the tears,
G#
I cried for you baby.
Bm G#...
You've gotta stop this heartache deep inside,
You've gotta help me make it
G#...
Through the night safely.
G#...
Come back and save me.

Chorus.

D#m C# G# Bm D#m C# G#

C# F#
Where do you, where do you go...



Вступление:

E--1-2-1-4------------1-2-4-6--1-2-1----
H------------------------------------4--
G----------1-1-3--13-------------------
D---------------------------------------
A---------------------------------------
E---------------------------------------

E--1-2-1-4--------9-9-9-8-6-2--1-2-1----
H------------------------------------4--
G----------1-1-3------------------------
D---------------------------------------
A---------------------------------------
E---------------------------------------

E-|-------------1---|-------|-----------1-|---1-4-1-6--
H-|-4-2-1-----2---4-|-4-2-1-|---------2---|-4----------
G-|-------3-3-------|-------|-3-3-3-3-----|------------
D-|-----------------|-------|-------------|------------
A-|-----------------|-------|-------------|------------
E-|-----------------|-------|-------------|------------
| < x2 > | | < x3 > |
No Mercy - Where Do You Go аккорд песни