Вторник, 29.09.2020, 22:35
Популярные аккорды
   Аккорды песен Башкирия (3666)
   Аккорды песен 5nizza - Пятница (2846)
   Аккорды песен Я у девушка юный бил ночью в гостях... (2236)
   Аккорды песен Вот идет караван... (2191)
   Аккорды песен Лесоповал - Я куплю тебе дом (Белый лебедь) (2092)
   Аккорды песен Дворовые песни - Казахи (1929)
   Аккорды песен Тема из к/ф "Джентльмены удачи" (1691)
   Аккорды песен Дoждь cтyчит пo кpышaм, cлoвнo мнe нaзлo (1649)
   Аккорды песен Агата Кристи - Как на войне (1558)
   Аккорды песен Кабриолет - Цепи (1527)
Поиск
Статистика

Добавлено аккордов: 2102



Аккорды к песням нашим


0-9 - A - B - C - D - E - F - G - H - I - J - K - L - M - N - O - P - Q - R - S - T - U - V - W - X - Y - Z
А - Б - В - Г - Д - Е - Ж - З - И - К - Л - М - Н - О - П - Р - С - Т - У - Ф - Х - Ц - Ч - Ш - Щ - Э - Ю - Я

Аккорд песни Offspring - Defy You
Просмотров: 265
Дата добавления: 08.09.2010
Категория: O
Intro 1

Fm Gm# Am# Gm# Fm
1:--1--4--6---4---1--
2:--1--4--6---4---1--
3:--1--4--6---4---1--
4:--3--6--8---6---3--
5:--3--6--8---6---3--
6:--1--4--6---4---1--


Intro 2

Fm Gm# Am# Gm# Am# Gm# Fm
1:--1--4---6---4---6--4---1-------
2:--1--4---6---4---6--4---1-------
3:--1--4---6---4---6--4---1-------
4:--3--6---8---6---8--6---3------
5:--3--6---8---6---8--6---3-------
6:--1--4---6---4---6--4---1-------


Version (Palm Muting) Intro 1



Chorus (Intro 1, Intro2)
Offspring - Defy You аккорд песни