Воскресенье, 17.01.2021, 12:29
Популярные аккорды
   Аккорды песен Башкирия (3715)
   Аккорды песен 5nizza - Пятница (2917)
   Аккорды песен Я у девушка юный бил ночью в гостях... (2323)
   Аккорды песен Вот идет караван... (2245)
   Аккорды песен Лесоповал - Я куплю тебе дом (Белый лебедь) (2140)
   Аккорды песен Дворовые песни - Казахи (1988)
   Аккорды песен Тема из к/ф "Джентльмены удачи" (1747)
   Аккорды песен Дoждь cтyчит пo кpышaм, cлoвнo мнe нaзлo (1693)
   Аккорды песен Агата Кристи - Как на войне (1608)
   Аккорды песен Песня из к/ф "Золото Маккены" (1589)
Поиск
Статистика

Добавлено аккордов: 2102



Аккорды к песням нашим


0-9 - A - B - C - D - E - F - G - H - I - J - K - L - M - N - O - P - Q - R - S - T - U - V - W - X - Y - Z
А - Б - В - Г - Д - Е - Ж - З - И - К - Л - М - Н - О - П - Р - С - Т - У - Ф - Х - Ц - Ч - Ш - Щ - Э - Ю - Я

Аккорд песни Offspring - Genocide
Просмотров: 292
Дата добавления: 08.09.2010
Категория: O
*-с заглушкой



X4
E|--------------------------------------------------|
B|--------------------------------------------------|
G|--------------------------------------------------|
D|-------------------------------------5****5-555---|
A|-5****5-555--5****5-555—-3****3-333—-3****3-333---|
E|-3****3-333--3****3-333—-1****1-111---------------|


Solo: X2
E|-6-6-6-5-5-6-6-8-8-8-6-6-6-5-5---5-5-5-6-5---3-3-3-3^4---3------|
B|-------------------------------6-----------5-----------5--------|
G|----------------------------------------------------------------|
D|----------------------------------------------------------------|


Our lives run different ways
Through the rain I see you in the sun
Our star shines anyway
If you wish upon it we are one

End-verse:
E|-----------------------------------------|
B|-----------------------------------------|
G|---5-5555-555-5-5555-555-(несколько раз)-|
D|-----------------------------------------|


Pre-chorus:
Е|----------------|
B|----------------|
G|----------------|
D|---5--5--5--5---|
A|---3--3--3--3---|
E|----------------|
One, two, three, four

Chorus:
E|------------------------------------------------------|
B|------------------------------------------------------|
G|-----------------------------5****5-555---------------|
D|----------------3****3-333---3****3-333---5****-5555--|
A|---5****5-555---1****1-111----------------3****-3333--|
E|---3****3-333-----------------------------------------|

Припев:

Dog eat dog
Every day
All about a man that we prey
Dog eat dog
To get by
Hope you like my genocide


Куплет:

I find it such a shame
Through the pain I see things as they are
We´re served up on a plate
The pedestal is high enough to fall
And if in time
We can see the errors of our ways
Would anyone change it anyhow

Pre-chorus2:
e|------------------|
B|------------------|
G|------------------|
D|---5-5-5--7-------|
A|---3-3-3--5-------|
E|------------------|

Our time is up

Припев:

Bridge: X7
e|-----------------------------------------------|
B|-----------------------------------------------|
G|-----------------------5********---------------|
D|------------3********--3********---5********---|
A|-5********--1********--------------3********---|
E|-3********-------------------------------------|

I bet you´d only run
If you saw what goes inside our own
I bet you´d lead the way
If it were up to you to decide
But it´s not

PПрипев: X2
Offspring - Genocide аккорд песни