Понедельник, 26.10.2020, 06:18
Популярные аккорды
   Аккорды песен Башкирия (3680)
   Аккорды песен 5nizza - Пятница (2872)
   Аккорды песен Я у девушка юный бил ночью в гостях... (2259)
   Аккорды песен Вот идет караван... (2206)
   Аккорды песен Лесоповал - Я куплю тебе дом (Белый лебедь) (2107)
   Аккорды песен Дворовые песни - Казахи (1946)
   Аккорды песен Тема из к/ф "Джентльмены удачи" (1707)
   Аккорды песен Дoждь cтyчит пo кpышaм, cлoвнo мнe нaзлo (1660)
   Аккорды песен Агата Кристи - Как на войне (1573)
   Аккорды песен Кабриолет - Цепи (1544)
Поиск
Статистика

Добавлено аккордов: 2102



Аккорды к песням нашим


0-9 - A - B - C - D - E - F - G - H - I - J - K - L - M - N - O - P - Q - R - S - T - U - V - W - X - Y - Z
А - Б - В - Г - Д - Е - Ж - З - И - К - Л - М - Н - О - П - Р - С - Т - У - Ф - Х - Ц - Ч - Ш - Щ - Э - Ю - Я

Аккорд песни Offspring - Pretty Fly
Просмотров: 274
Дата добавления: 08.09.2010
Категория: O
There were no decent tabs for this song, so i spent an agonous 30min or so typing
this up in readable format. One thing to note is that the number of chords typed
may not be the exact number of chords played, get me? I mean I have just given the
basic chord, and not the actual timing for changing...Have Fun

/ - slide up
- slide down

Intro/Bridge:
|---------------------------|
|---------------------------|
|--4--------------9--7--7--|
|--4---4-/-7-/-9--9--7--7--|
|--2---4-/-7-/-9--7--5--5--|
|------2-/-5-/-7------------|


Verses: For 2nd guitar:
|---7-----7----7--| |----------------------|
|---7-----7----7--| |----------------------|
|-----------------| |----------------------|
|-----------------| |----------------------|
|-----------------| |--2----------7--5--2--|
|-----------------| |----2--5--7-----------|
(repeat that a
bunch of times...)

Chorus: (hard)
|------------------|------------------|
|------------------|------------------|
|-----10/11--10/11-|-77-------9--7--9-|
|--99-10/11--10/11-|-77--7-7--9--7--9-|
|--99--8/-9---8/-9-|-55--7-7--7--5--7-|
|--77--------------|-----5-5----------| repeat x2
(repeat measure)

Ending of chorus:
|------------------------|
|------------------------|
|------12--14------------|
|--9---12--14--99-99999--|
|--9---10--12--99-99999--|
|--7-----------77-77777--|

In the 3rd verse:
|-----| |---|
|-----| |---|
|-----| |---|
|--9--| |-9-|
|--9--| |-9-|
|--7--| |-7-|
..and he´s trying too hard, but he´s not quite hip

End with:
|--------------| |--------|
|--------------| |--------|
|-12---14---12-| |--------|
|-12---14---12-| |----9---|
|-10---12---10-| |----9---|
|--------------| |----7---|
The worlds needs wannabe´s.. Hey! Hey do that brand new thing!
Offspring - Pretty Fly аккорд песни