Понедельник, 21.09.2020, 19:47
Популярные аккорды
   Аккорды песен Башкирия (3660)
   Аккорды песен 5nizza - Пятница (2843)
   Аккорды песен Я у девушка юный бил ночью в гостях... (2229)
   Аккорды песен Вот идет караван... (2185)
   Аккорды песен Лесоповал - Я куплю тебе дом (Белый лебедь) (2085)
   Аккорды песен Дворовые песни - Казахи (1922)
   Аккорды песен Тема из к/ф "Джентльмены удачи" (1683)
   Аккорды песен Дoждь cтyчит пo кpышaм, cлoвнo мнe нaзлo (1642)
   Аккорды песен Агата Кристи - Как на войне (1555)
   Аккорды песен Кабриолет - Цепи (1520)
Поиск
Статистика

Добавлено аккордов: 2102



Аккорды к песням нашим


0-9 - A - B - C - D - E - F - G - H - I - J - K - L - M - N - O - P - Q - R - S - T - U - V - W - X - Y - Z
А - Б - В - Г - Д - Е - Ж - З - И - К - Л - М - Н - О - П - Р - С - Т - У - Ф - Х - Ц - Ч - Ш - Щ - Э - Ю - Я

Аккорд песни Opeth - Patterns In The Ivy
Просмотров: 252
Дата добавления: 08.09.2010
Категория: O
(instrumental)

E||---------------0-----------|-----0---------------------||--------------------------|
B||------------0-----0--------|--------0------------------||--------------0-----------|
G||*--------2-----------2-----|-----------5--------------*||-----------2-----2--------|
D||*-----2-----------------2/-|--5-----------------------*||--------3-----------3-----|
A||---0-----------------------|--------------3h-2--0------||-----3-----------------3--|
E||---------------------------|-----------------------3---||--1-----------------------|



--------------------------|--------------------------|--------------------------|
--------0-----------------|--------------3-----------|--------------------------|
-----------3-----------3--|--------2--3-----3--2--0--|-----------2--4h-5h-4--0--|
--------------4-----4-----|--------------------------|--------2-----------------|
-----4-----------4--------|-----5--------------------|-----3--------------------|
--2-----------------------|--3-----------------------|--4-----------------------|



--------------0-----------|-----0--------------------|--------------0-----------|
-----------0-----0--------|--------0-----------------|-----------0-----0--------|
--------2-----------2-----|-----------5--------------|--------2-----------2-----|
-----2-----------------2/-|--5-----------------------|-----2-----------------2/-|
--0-----------------------|--------------3h-2--0-----|--0-----------------------|
--------------------------|-----------------------3--|--------------------------|



-----0--------------------|--------------0-----------|-----0--------------------|
--------0-----------------|-----------0-----0--------|--------0-----------------|
-----------5--------------|--------2-----------2-----|-----------5--------------|
--5-----------------------|-----2-----------------2/-|--5-----------------------|
--------------3h-2--0-----|--0-----------------------|--------------3h-2--0-----|
-----------------------3--|--------------------------|-----------------------3--|



--------------0-----------|-----0--------------------|--------------------------|
-----------0-----0--------|--------0-----------------|--------------0-----------|
--------2-----------2-----|-----------5--------------|-----------2-----2--------|
-----2-----------------2/-|--5-----------------------|--------3-----------3-----|
--0-----------------------|--------------3h-2--0-----|-----3-----------------3--|
--------------------------|-----------------------3--|--1-----------------------|



--------------------------|--------------------------|--------------------------|
--------0-----------------|--------------3-----------|--------------------------|
-----------3-----------3--|--------2--3-----3--2--0--|-----------2--4h-5h-4--0--|
--------------4-----4-----|--------------------------|--------2-----------------|
-----4-----------4--------|-----5--------------------|-----3--------------------|
--2-----------------------|--3-----------------------|--4-----------------------|


3x
|---------------0-----------|-----0---------------------||--------------------------|
|------------0-----0--------|--------0------------------||--------------------------|
|*--------2-----------2-----|-----------5--------------*||-----------0-----------0--|
|*-----2-----------------2/-|--5-----------------------*||--------0-----0-----0-----|
|---0-----------------------|--------------3h-2--0------||--2/-6-----------5--------|
|---------------------------|-----------------------3---||--------------------------|



--------------------------|-----------------0--------|--------------------|
--------------------0-----|--------------4-----4-----|--------------------|
--------0--------2-----2--|-----------4-----------4--|--------------------|
-----1--------2-----------|--2-----3-----------------|--3-----------------|
--3--------0--------------|-----2--------------------|-----2--------------|
--------------------------|--------------------------|--------------------|



--------------------------|--------------------------|--------3--3-----3-------|
--------------------------|--------------------0-----|--------5--3-----2-------|
-----------0-----------0--|--------0--------2-----2--|--------0--0-----0-------|
--------0-----0-----0-----|-----1--------2-----------|--2----------------------|
--2/-6-----------5--------|--3--------0--------------|-------------------------|
--------------------------|--------------------------|-----0--------0-------0--|


7x
--3-------3----------||---------------0-----------|-----0---------------------||
--1-------0----------||------------0-----0--------|--------0------------------||
--0-------0----------||*--------2-----------2-----|-----------5--------------*||
---------------------||*-----2-----------------2/-|--5-----------------------*||
---------------------||---0-----------------------|--------------3h-2--0------||
-------0-------------||---------------------------|-----------------------3---||
Opeth - Patterns In The Ivy аккорд песни