Пятница, 22.01.2021, 19:37
Популярные аккорды
   Аккорды песен Башкирия (3718)
   Аккорды песен 5nizza - Пятница (2923)
   Аккорды песен Я у девушка юный бил ночью в гостях... (2327)
   Аккорды песен Вот идет караван... (2249)
   Аккорды песен Лесоповал - Я куплю тебе дом (Белый лебедь) (2143)
   Аккорды песен Дворовые песни - Казахи (1992)
   Аккорды песен Тема из к/ф "Джентльмены удачи" (1750)
   Аккорды песен Дoждь cтyчит пo кpышaм, cлoвнo мнe нaзлo (1696)
   Аккорды песен Агата Кристи - Как на войне (1613)
   Аккорды песен Песня из к/ф "Золото Маккены" (1594)
Поиск
Статистика

Добавлено аккордов: 2102



Аккорды к песням нашим


0-9 - A - B - C - D - E - F - G - H - I - J - K - L - M - N - O - P - Q - R - S - T - U - V - W - X - Y - Z
А - Б - В - Г - Д - Е - Ж - З - И - К - Л - М - Н - О - П - Р - С - Т - У - Ф - Х - Ц - Ч - Ш - Щ - Э - Ю - Я

Аккорд песни Main theme из к/ф "Star Wars"
Просмотров: 337
Дата добавления: 09.06.2010
Категория: Песни из кино и мультфильмов
e-----------------3---------3------------|
B---------3-1-0-----3-1-0-----3-1-0-1----|
G-------0-------2---------2-----------2--| <--- repeat
D-0-0-0----------------------------------|
A----------------------------------------|
E----------------------------------------|

e --------------------------------------------------|
B ---------1-0--------------------------1-0-----3---|
G -------------2-0-0-2-4-2------------------2-0---2-|
D -0-0-2-2-----------------2-4--0-0-2-2-------------|
A --------------------------------------------------|
E --------------------------------------------------|

e----------------------------------3-1----------------|
B------------------------------3-3-----4-3-1-0-----3--|
G---------1-0----------------------------------2-0----|
D-------------2-0-0-2-4-2-----------------------------|
A-0-0-2-2-----------------2-4-------------------------|
E-----------------------------------------------------|
Main theme из к/ф "Star Wars" аккорд песни