Среда, 21.08.2019, 02:16
Новые аккорды
Популярные аккорды
   Аккорды песен Башкирия (3444)
   Аккорды песен 5nizza - Пятница (2570)
   Аккорды песен Вот идет караван... (1958)
   Аккорды песен Я у девушка юный бил ночью в гостях... (1897)
   Аккорды песен Лесоповал - Я куплю тебе дом (Белый лебедь) (1895)
   Аккорды песен Дворовые песни - Казахи (1725)
   Аккорды песен Тема из к/ф "Джентльмены удачи" (1471)
   Аккорды песен Дoждь cтyчит пo кpышaм, cлoвнo мнe нaзлo (1463)
   Аккорды песен Агата Кристи - Как на войне (1386)
   Аккорды песен Кабриолет - Цепи (1309)
Поиск
Статистика

Добавлено аккордов: 2047



Аккорды к песням нашим


0-9 - A - B - C - D - E - F - G - H - I - J - K - L - M - N - O - P - Q - R - S - T - U - V - W - X - Y - Z
А - Б - В - Г - Д - Е - Ж - З - И - К - Л - М - Н - О - П - Р - С - Т - У - Ф - Х - Ц - Ч - Ш - Щ - Э - Ю - Я

Аккорд песни Тема из к/ф "Джентльмены удачи"
Просмотров: 1472
Дата добавления: 09.06.2010
Категория: Песни из кино и мультфильмов
1|-------------|-------------|---1-0-----------------|
2|-------------|-------------|-------3---1-----------|
3|-2-3-2-1-2---|-2-3-2-1-2---|-2-------2---3-2-3-2-0-|
4|-----------3-|-----------2-|-----------------------|
5|-------------|-------------|-----------------------|
6|-------------|-------------|-----------------------|

Моя подборка (подбиралась тут же за 10 минут на мой слух, так что не ругайте сильно).

1|-------------|-------------|---------------------|
2|-------------|-------------|---------------------|
3|-------------|-------------|---------------------|
4|-5-7-5-4-5---|-5-7-5-4-5---|-5-7-5---5-4-----5-4-|
5|-----------7-|-----------7-|-------7-----7-4-----|
6|-------------|-------------|---------------------|
Тема из к/ф "Джентльмены удачи" аккорд песни