Пятница, 26.02.2021, 03:29
Популярные аккорды
   Аккорды песен Башкирия (3732)
   Аккорды песен 5nizza - Пятница (2947)
   Аккорды песен Я у девушка юный бил ночью в гостях... (2355)
   Аккорды песен Вот идет караван... (2301)
   Аккорды песен Лесоповал - Я куплю тебе дом (Белый лебедь) (2163)
   Аккорды песен Дворовые песни - Казахи (2007)
   Аккорды песен Тема из к/ф "Джентльмены удачи" (1763)
   Аккорды песен Дoждь cтyчит пo кpышaм, cлoвнo мнe нaзлo (1713)
   Аккорды песен Агата Кристи - Как на войне (1628)
   Аккорды песен Песня из к/ф "Золото Маккены" (1617)
Поиск
Статистика

Добавлено аккордов: 2102



Аккорды к песням нашим


0-9 - A - B - C - D - E - F - G - H - I - J - K - L - M - N - O - P - Q - R - S - T - U - V - W - X - Y - Z
А - Б - В - Г - Д - Е - Ж - З - И - К - Л - М - Н - О - П - Р - С - Т - У - Ф - Х - Ц - Ч - Ш - Щ - Э - Ю - Я

Аккорд песни U.D.O. - Raiders Of Beyond
Просмотров: 316
Дата добавления: 09.06.2010
Категория: U
Tabbed By Joel H

Intro
X2
E----------------------------------------------------------|
B----------------------------------------------------------|
G------------------------5--3------------------------5-----|
D--2---3---2------2--5---5--3--2---3---2------2--3---5--5--|
A--0-0-1-1-0--0-0-0--5---3--1--0-0-1-1-0--0-0-0--3---3--5--|
E--------------------3---------------------------1------3--|
pm . . . . . . . .

Riff.2
X4
E------------------------------------------|
B------------------------------------------|
G------------------------------------------|
D--2p0-2--2-0h2-3p2-0h2--2p0-2--2-2--2-0-5-|
A--2p0-2--2-0h2-3p2-0h2--2p0-2--2-2--2-0-5-|
E-0---0--0-0------------0---0--0----0------|
pm. . . . . . . .. .
Verse
E--------------------------------------------------------------------------
B--------------------------------------------------------------------------
G--------------------------------------------------------------------------
D--2p0-2----------2p0-2----2-5--2-5--2p0-2----------2p0-2--0h2-3p2-0h2-3p2-
A--2p0-2----------2p0-2----2-5--2-5--2p0-2----------2p0-2--0h2-3p2-0h2-3p2-
E-0---0----------0---0----0----0----0---0----------0---0--0----------------
pm. . . . .. .. . . . . .

------------------------------------------------------------------------|
------------------------------------------------------------------------|
------------------------------------------------------------------------|
--2p0-2----------2p0-2----2-5--2-5--2p0-2----------2p0-2--0h2-3p2--2-5--|
--2p0-2----------2p0-2----2-5--2-5--2p0-2----------2p0-2--0h2-3p2--2-5--|
-0---0----------0---0----0----0----0---0----------0---0--0--------0-----|
. . . . .. .. . . . . . ..


Bridge
E---------------------------------------------------|
B---------------------------------------------------|
G---------------------------------------------7-----|
D--8--9-8---------------------------------7-8---10~-|
A----------10-8-7-10--8-7------------5-8------------|
E--------------------------10-8-7-6-----------------|


Chorus
X2
E----------------------------------------------------------|
B----------------------------------------------------------|
G------------------------5--3------------------------5-----|
D--2---3---2------2--5---5--3--2---3---2------2--3---5--5--|
A--0-0-1-1-0--0-0-0--5---3--1--0-0-1-1-0--0-0-0--3---3--5--|
E--------------------3---------------------------1------3--|
pm . . . . . . . .

Riff 2
Verse
Bridge
Chorus

Riff 6
X2
E---------------------------------------------------|
B---------------------------------------------------|
G-----------------11--9-----------------------------|
D-----11--12--11--------12-11---9--12--11-----------|
A--9---------------------------------------12--9----|
E---------------------------------------------------|

solo

Guitar 2 plays chorus

Bridge 2
E--17--18-17------------------------------------------17-18-22-20~-|
B-------------20-18-17-20--18-17---------------15-18---------------|
G---------------------------------19-17-16-15----------------------|
D------------------------------------------------------------------|
A------------------------------------------------------------------|
E------------------------------------------------------------------|

Chorus

End riff
E--------------------------------------------------------------------
B--------------------------------------------------------------------
G------------------------5--3----------------------------------------
D--2---3---2------2--5---5--3--2---3---2------2--3-2-5--3-2-5--3-2-5-
A--0-0-1-1-0--0-0-0--5---3--1--0-0-1-1-0--0-0-0--3-2-5--3-2-5--3-2-5-
E--------------------3--------------------------0------0------0------
pm . . . . . . . . .. . .. . .. .

--------------------------------------------|
--------------------------------------------|
--------------------------------------------|
-2---3---2--3-2-5--3-2-5--3-2-5--2---3---2--|
-0-0-1-1-0--3-2-5--3-2-5--3-2-5--0-0-1-1-0--|
-----------0------0------0------------------|
. . .. . .. . .. . . .
U.D.O. - Raiders Of Beyond аккорд песни