Воскресенье, 25.10.2020, 04:58
Популярные аккорды
   Аккорды песен Башкирия (3680)
   Аккорды песен 5nizza - Пятница (2871)
   Аккорды песен Я у девушка юный бил ночью в гостях... (2259)
   Аккорды песен Вот идет караван... (2206)
   Аккорды песен Лесоповал - Я куплю тебе дом (Белый лебедь) (2107)
   Аккорды песен Дворовые песни - Казахи (1945)
   Аккорды песен Тема из к/ф "Джентльмены удачи" (1707)
   Аккорды песен Дoждь cтyчит пo кpышaм, cлoвнo мнe нaзлo (1660)
   Аккорды песен Агата Кристи - Как на войне (1573)
   Аккорды песен Кабриолет - Цепи (1543)
Поиск
Статистика

Добавлено аккордов: 2102



Аккорды к песням нашим


0-9 - A - B - C - D - E - F - G - H - I - J - K - L - M - N - O - P - Q - R - S - T - U - V - W - X - Y - Z
А - Б - В - Г - Д - Е - Ж - З - И - К - Л - М - Н - О - П - Р - С - Т - У - Ф - Х - Ц - Ч - Ш - Щ - Э - Ю - Я

Аккорд песни U.D.O. - They Want War
Просмотров: 305
Дата добавления: 09.06.2010
Категория: U
Песня взята с сайта www.accepttabs.cjb.net

Intro:
Riff 1
Gtr1: Clean Electric
Rhy.fig.1
||-------------------------------------------------------|
||*---------------18-18-18-18---------------------------*|
||---19-19-19-19---------------15-15-15-15-15-15-15-15---|
||*-----------------------------------------------------*|
||-------------------------------------------------------|
||-------------------------------------------------------|
4 3 1

This pattern is played very simply. You have only to pick the 17th fret with the index
finger (the 1st) and release it, when necessary.<

. . .then
|--------------------------------------------------|
|-----------18-18-18-------------------------------|
|--17-17-17----------17----19 19-19-19-19-19-19-19-|
|--------------------------------------------------|
|--------------------------------------------------|
|--------------------------------------------------|
2 3 2 4

. . . play one more time Rhy.fig.1, then . . .
|-------------------------------------------------------------------||
|--18-18-18---------------------------------------------------------||
|-----------19-19-19--17-17-17-17-17-17-17 many times---------------||
|----------------------------------------(when play it last time)---||
|-------------------------------------------------------------------||
|-------------------------------------------------------------------||
3 4 2

. . . play all this(Riff 1) 3 times

. . . after the 1st repeat, the second guitar joins. . .

Riff 2
Gtr 2: Distortion
||------------------------------------|-----------------------------------|
||------------------------------------|-----------------------------------|
||---7---10-------------5---10-9--7:--|--7--10-----------12--10--9--7:----|
||---7---10---8:--------5---10-9--7:--|--7--10---8:------12--10--9--7:----|
||---5---8----8:--------3---8--7--5:--|--5---8---8:------10---8--7--5:----|
||------------6:----------------------|----------6:-----------------------|

|------------------------------------|-----------------------------------||
|------------------------------------|-----------------------------------||
|---7---10-------------5---10-9--7:--|--7--10-----------12--10--9--9:----||
|---7---10---8:--------5---10-9--7:--|--7--10---8:------12--10--9--9:----||
|---5---8----8:--------3---8--7--5:--|--5---8---8:------10---8--7--7:----||
|------------6:----------------------|----------6:-----------------------||


Riff 3a
Both Guitars
||------------------|-----------------|------------------------------||
||------------------|-----------------|------------------------------||
||--7/9---9--12:----|--7/9---9--14:---|--12-----9-7--7/9----12--9:---||
||--7/9---9--12:----|--7/9---9--14:---|--12-----9-7--7/9----12--9:---||
||--5/7---7--10:----|--5/7---7--12:---|--10-----7-5--5/7----10--7:---||
||------------------|-----------------|------------------------------||

Verse:
Riff 3b
. . . They are young and they´re kids . . . And believe what they see . . .
||------------------------------------------------------------------------|
||------------------------------------------------------------------------|
||----7/9------------9----------------12:--------H---O---L---D------------|
||----7/9------------9----------------12:--------H---O---L---D------------|
||----9/7------------7----------------10:--------H---O---L---D------------|
||------------------------------------------------------------------------|

. . . That to do what they´ve been told . . .
|------------------------------------------------|
|------------------------------------------------|
|------7/9-------------12------------9:---HOLD---|
|------7/9-------------12------------9:---HOLD---|
|------5/7-------------10------------7:---HOLD---|
|------------------------------------------------|

. . . And so they walk away with open eyes . . .
|------------------------------------------------------|
|------------------------------------------------------|
|-----7:----HOLD---------12-----9------7/9-----12--9:--|
|-----7:----HOLD---------12-----9------7/9-----12--9:--|
|-----5:----HOLD---------10-----7------5/7-----10--7:--|
|------------------------------------------------------|


. . . Some are eight or nine or ten . . .
|----------------------------------------------|
|----------------------------------------------|
|-----7/9---------------9--------12:-----HOLD--|
|-----7/9---------------9--------12:-----HOLD--|
|-----9/7---------------7--------10:-----HOLD--|
|----------------------------------------------|

. . . And they die like a fly . . . And no one knows . . .
|-----------------------------------------------------------|
|-----------------------------------------------------------|
|---------------------7/9---------------12------9:---HOLD---|
|---------------------7/9---------------12------9:---HOLD---|
|---------------------5/7---------------10------7:---HOLD---|
|-----------------------------------------------------------|

. . . Who they are, they´re smaller than the gun they load . . .
|------------------------------------------------------------------------||
|------------------------------------------------------------------------||
|------------7:---------HOLD---------12-----9------------7/9-----12--9:--||
|------------7:---------HOLD---------12-----9------------7/9-----12--9:--||
|------------5:---------HOLD---------10-----7------------5/7-----10--7:--||
|------------------------------------------------------------------------||


Fill 1
||--------------------------------------||
||--------------------------------------||
||--------------------------------------||
||--------------------------------------||
||--------------------------------------||
||--------------------------------------||


Bridge:
Riff 4
. . . See their eyes open wide . . .
||-----------------------------------------------|-----------------------------|
||-----------------------------------------------|-----------------------------|
||-----------------------------------------------|-----------------------------|
||-----------------------------------------------|-----------------------------|
||-------54--------4:--------------4-------9:---|-------97--------73--------|
||---0---32---2-2--2:-----2-2-2-2--2---0---7:---|--7-7--75---5-5--55--------|
pm ... ... ....... ... .... ...

. . . They died before they ever cried . . .
|------------------------------------------------|-----------------------------||
|------------------------------------------------|-----------------------------||
|------------------------------------------------|-----------------------------||
|------------------------------------------------|-----------------------------||
|-------54--------4:---------------4-------2:---|-------4/7--------73--------||
|---0---32---2-2--2:-----2-2-2-2---2---0---0:---|--2-2--2/5---5-5--55--------||
pm ... ... ....... ... .... ...


Verse:
Riff 3b. . . They die in the streets and they die in the fields . . .
||------------------------------------------------------------|
||------------------------------------------------------------|
||--------7/9-----------9-------12:-------------HOLD----------|
||--------7/9-----------9-------12:-------------HOLD----------|
||--------9/7-----------7-------10:-------------HOLD----------|
||------------------------------------------------------------|

. . . When they do what they´ve been told . . .
|--------------------------------------------------|
|--------------------------------------------------|
|------7/9---------------12------------9:---HOLD---|
|------7/9---------------12------------9:---HOLD---|
|------5/7---------------10------------7:---HOLD---|
|--------------------------------------------------|

. . . But now they´re lying dead . . . Their eyes are closed . . .
|---------------------------------------------------------------------|
|---------------------------------------------------------------------|
|--------7:----HOLD---------12----------9----------7/9--------12--9:--|
|--------7:----HOLD---------12----------9----------7/9--------12--9:--|
|--------5:----HOLD---------10----------7----------5/7--------10--7:--|
|---------------------------------------------------------------------|


. . . Some are eight or nine or ten . . .
|----------------------------------------------|
|----------------------------------------------|
|-----7/9---------------9--------12:-----HOLD--|
|-----7/9---------------9--------12:-----HOLD--|
|-----9/7---------------7--------10:-----HOLD--|
|----------------------------------------------|

. . . And they die like a fly . . . And no one knows . . .
|-----------------------------------------------------------|
|-----------------------------------------------------------|
|---------------------7/9---------------12------9:---HOLD---|
|---------------------7/9---------------12------9:---HOLD---|
|---------------------5/7---------------10------7:---HOLD---|
|-----------------------------------------------------------|

. . . Who they are, they´re smaller than the gun . . .
|------------------------------------------------------||
|------------------------------------------------------||
|------------7:---------HOLD---------12-----9----------||
|------------7:---------HOLD---------12-----9----------||
|------------5:---------HOLD---------10-----7----------||
|------------------------------------------------------||

Fill 2
. . . they load . . .
||--------------------------------------------||
||--------------------------------------------||
||--------------------------------------------||
||--------------------------------------------||
||------------14/12--12/10--10/9--9/7--7/5----||
||------------12/10--10/8----8/7--7/5--5/3----||


Bridge:
Riff 4
. . . See their eyes open wide . . .
||-----------------------------------------------|-----------------------------|
||-----------------------------------------------|-----------------------------|
||-----------------------------------------------|-----------------------------|
||-----------------------------------------------|-----------------------------|
||-------54--------4:--------------4-------9:---|-------97--------73--------|
||---0---32---2-2--2:-----2-2-2-2--2---0---7:---|--7-7--75---5-5--55--------|
pm ... ... ....... ... .... ...

. . . They died before they ever cried . . .
|------------------------------------------------|-----------------------------|
|------------------------------------------------|-----------------------------|
|------------------------------------------------|-----------------------------|
|------------------------------------------------|-----------------------------|
|-------54--------4:---------------4-------2:---|-------4/7--------73--------|
|---0---32---2-2--2:-----2-2-2-2---2---0---0:---|--2-2--2/5---5-5--55--------|
pm ... ... ....... ... .... ...

. . . Who taught them how - how to pray . . .
|-------------------------------------------------|-----------------------------|
|-------------------------------------------------|-----------------------------|
|-------------------------------------------------|-----------------------------|
|-------------------------------------------------|-----------------------------|
|-------54--------4:----------------4-------9:---|-------97--------73--------|
|---0---32---2-2--2:------2-2-2-2---2---0---7:---|--7-7--75---5-5--55--------|
pm ... ... ....... ... .... ...

. . . Who told them they´re in paradise when they´re gonna die . . .
|-----------------------------------------------------------------------------||
|-----------------------------------------------------------------------------||
|-----------------------------------------------------------------------------||
|-----------------------------------------------------------------------------||
|-------54--------4:---------------4-------2:------------------------5:------||
|---0---32---2-2--2:-----2-2-2-2---2---0---0:------------------------3:------||
pm ... ... ....... ...


Fill 3
||--------------------------------------||
||--------------------------------------||
||--------------------------------------||
||--------------------------------------||
||--------------------------------------||
||--------------------------------------||

(I´m not sure about the chorus, but here it is . . .)

Chorus:
Gtr 1
Riff 5a
. . . They are blind and they can´t fight . . . . . . They want war . . .
||-----17~-17~--17~----17~-17~----15~~~~-------|-------17~----15~----13~~~~~---------|
||---------------------------------------------|-------------------------------------|
||---------------------------------------------|-------------------------------------|
||---------------------------------------------|-------------------------------------|
||---------------------------------------------|-------------------------------------|
||---------------------------------------------|-------------------------------------|


. . . They are blind and they can´t fight . . . . . . They want war . . .
|------17~-17~--17~----17~-17~----15~~~~-------|-------13~----17~----12~~~~~--------||
|----------------------------------------------|------------------------------------||
|----------------------------------------------|------------------------------------||
|----------------------------------------------|------------------------------------||
|----------------------------------------------|------------------------------------||
|----------------------------------------------|------------------------------------||


Riff 5b
. . . They are blind and they can´t fight . . . . . . They want war . . .
||-----17~-17~--17~----17~-17~----15~~~~-------|-------17~----15~----13~~~~~---------|
||---------------------------------------------|-------------------------------------|
||---------------------------------------------|-------------------------------------|
||---------------------------------------------|-------------------------------------|
||---------------------------------------------|-------------------------------------|
||---------------------------------------------|-------------------------------------|


. . . They are blind and they can´t fight . . . . . . They want . . .
|------17~-17~--17~----17~-17~----15~~~~-------|-------13~----17~----||
|----------------------------------------------|---------------------||
|----------------------------------------------|---------------------||
|----------------------------------------------|---------------------||
|----------------------------------------------|---------------------||
|----------------------------------------------|---------------------||

Fill 4
. . . w a r . . .
||--------------------------------------||
||--------------------------------------||
||--------------------------------------||
||--------------------------------------||
||--------------------------------------||
||--------------------------------------||
U.D.O. - They Want War аккорд песни