Пятница, 22.01.2021, 17:49
Популярные аккорды
   Аккорды песен Башкирия (3718)
   Аккорды песен 5nizza - Пятница (2922)
   Аккорды песен Я у девушка юный бил ночью в гостях... (2327)
   Аккорды песен Вот идет караван... (2249)
   Аккорды песен Лесоповал - Я куплю тебе дом (Белый лебедь) (2143)
   Аккорды песен Дворовые песни - Казахи (1992)
   Аккорды песен Тема из к/ф "Джентльмены удачи" (1750)
   Аккорды песен Дoждь cтyчит пo кpышaм, cлoвнo мнe нaзлo (1696)
   Аккорды песен Агата Кристи - Как на войне (1613)
   Аккорды песен Песня из к/ф "Золото Маккены" (1594)
Поиск
Статистика

Добавлено аккордов: 2102



Аккорды к песням нашим


0-9 - A - B - C - D - E - F - G - H - I - J - K - L - M - N - O - P - Q - R - S - T - U - V - W - X - Y - Z
А - Б - В - Г - Д - Е - Ж - З - И - К - Л - М - Н - О - П - Р - С - Т - У - Ф - Х - Ц - Ч - Ш - Щ - Э - Ю - Я

Аккорд песни ВИА Гра - Песня подружек Оксаны
Просмотров: 339
Дата добавления: 08.06.2010
Категория: В
Эту песню исполнила группа ВИАГРА в новогодней сказке "Вечера на хуторе близ Диканьки"

Dm(F) - играем как Dm, но бас ФА на 6 струне.
1-2-|----|-----
2---|----|--4--
3---|-3--|-----
4---|----|-----
5---|----|-----
6-1-|----|----- <-бас

Перебор таков
Dm Dm(F) Am C
E|------1-----|------1-----|------0-----|------0-----|
B|------3-----|------3-----|------1-----|------1-----|
G|---2--------|---2--------|---2--------|---0(2)-----| 0(2) - это означает, что вместо
D|0--------0--|------------|------------|------------| 0 можно играть 2
A|------------|------------|0--------0--|3--------3--|
E|------------|1--------1--|------------|------------|
... и так далее.

Dm Dm(F) Am C
Снова звезды светят на небе
Dm Dm(F) Am C
Ясный месяц за окном
Dm Dm(F) Am C
Покажи мне друг мой зеркальце
Dm E Am
Что мне в жизни суждено

Припев
Dm Dm(F) Am C
Ой, появись мой суженый, любый
Dm Dm(F) Am C
Мой близко ль далеко-о-о
Dm Dm(F) Am C
Ой, появись мой суженый
Dm F Am
Сердце девичье успокой

(аккорды те же)
Кто ты, кто ты, мне не ведано
Грустно девице одной
Покажи мне друг мой зеркальце
Что мне в жизни суждено

Припев * 2 раза
Dm F Am
Сердце девичье успокой * 2 раза
ВИА Гра - Песня подружек Оксаны аккорд песни