Понедельник, 26.10.2020, 15:17
Популярные аккорды
   Аккорды песен Башкирия (3680)
   Аккорды песен 5nizza - Пятница (2872)
   Аккорды песен Я у девушка юный бил ночью в гостях... (2259)
   Аккорды песен Вот идет караван... (2206)
   Аккорды песен Лесоповал - Я куплю тебе дом (Белый лебедь) (2107)
   Аккорды песен Дворовые песни - Казахи (1946)
   Аккорды песен Тема из к/ф "Джентльмены удачи" (1707)
   Аккорды песен Дoждь cтyчит пo кpышaм, cлoвнo мнe нaзлo (1660)
   Аккорды песен Агата Кристи - Как на войне (1573)
   Аккорды песен Кабриолет - Цепи (1544)
Поиск
Статистика

Добавлено аккордов: 2102



Аккорды к песням нашим


0-9 - A - B - C - D - E - F - G - H - I - J - K - L - M - N - O - P - Q - R - S - T - U - V - W - X - Y - Z
А - Б - В - Г - Д - Е - Ж - З - И - К - Л - М - Н - О - П - Р - С - Т - У - Ф - Х - Ц - Ч - Ш - Щ - Э - Ю - Я

Аккорд песни ВиВиСекция - Пол дня
Просмотров: 210
Дата добавления: 08.06.2010
Категория: В
Пол дня, пол дня, как пол-века назад
Я был, я плыл вниз по реке.
Я знал, я верил в победу добра.
Я шел, я вел свой народ.

TAB 1:
E||-----------7--------|--7----5----7----5----|--------------------------|
B||--5-----------------|----------------------|--8----8----8----8--7-8-7-|
G||--------------------|----------------------|--------------------------|
D||--------------------|----------------------|--------------------------|
A||--------------------|----------------------|--------------------------|
E||--------------------|----------------------|--------------------------|

-------------------|------------------||
--5----------------|------------------||
-------------------|------------------||
-------------------|------------------||
-------------------|------------------||
-------------------|------------------||

Но враги вышли из лесов
Грохот пушек, треск мостов
И нет кораблей, и нет моряков
Лишь плач трусов да смех дураков.

TAB 1

Все стихло, замерло нет победы, нет живых
И нет кораблей и нет моряков
Пол дня, пол дня, как пол-века назад
Я был, был народ, а теперь тишина.

TAB 2:
E||------------10--------|--12----15----14----12--12--|
B||--12------------------|----------------------------|
G||----------------------|----------------------------|
D||----------------------|----------------------------|
A||----------------------|----------------------------|
E||----------------------|----------------------------|

--10----------12----10------|--------------------||
--------12--------------12--|--12----------------||
----------------------------|--------------------||
----------------------------|--------------------||
----------------------------|--------------------||
----------------------------|--------------------||
ВиВиСекция - Пол дня аккорд песни