Понедельник, 28.09.2020, 21:54
Популярные аккорды
   Аккорды песен Башкирия (3666)
   Аккорды песен 5nizza - Пятница (2845)
   Аккорды песен Я у девушка юный бил ночью в гостях... (2236)
   Аккорды песен Вот идет караван... (2191)
   Аккорды песен Лесоповал - Я куплю тебе дом (Белый лебедь) (2091)
   Аккорды песен Дворовые песни - Казахи (1929)
   Аккорды песен Тема из к/ф "Джентльмены удачи" (1690)
   Аккорды песен Дoждь cтyчит пo кpышaм, cлoвнo мнe нaзлo (1649)
   Аккорды песен Агата Кристи - Как на войне (1558)
   Аккорды песен Кабриолет - Цепи (1527)
Поиск
Статистика

Добавлено аккордов: 2102



Аккорды к песням нашим


0-9 - A - B - C - D - E - F - G - H - I - J - K - L - M - N - O - P - Q - R - S - T - U - V - W - X - Y - Z
А - Б - В - Г - Д - Е - Ж - З - И - К - Л - М - Н - О - П - Р - С - Т - У - Ф - Х - Ц - Ч - Ш - Щ - Э - Ю - Я

Аккорд песни Yngwie Malmsteen - Never Die
Просмотров: 294
Дата добавления: 09.06.2010
Категория: Y
Из альбома The Seventh Sign (1994)

По моему - одна из самых лучших его песен, и достаточно сложная.
Поскольку я еще не дорос до дяди Ингви, то играю ЭТО раза в 2 медленнее...

Вступительное соло (играть как только возможно быстро :))

00:00
E||--11-12-11-9-7--------16-14-12-11-9-7-6-4-|--6-7-11-11-12-11-9-7-6-4-4-4-6-4-3--|
B||---------------8-9-11---------------------|-------------------------------------|
G||------------------------------------------|-------------------------------------|
D||------------------------------------------|-------------------------------------|
A||------------------------------------------|-------------------------------------|
E||------------------------------------------|-------------------------------------|



--4-3--0--------------------------|
---------4-2--0-----------4-------|
----------------3-1--1-1-----1-1--|
----------------------------------|
----------------------------------|
----------------------------------|



--------0-1-4-6---4-6--6-7--11-12--14--------9-11--12-14--|
--0-2-4---------7---------------------11--11--------------|
----------------------------------------------------------|
----------------------------------------------------------|
----------------------------------------------------------|
----------------------------------------------------------|



--------------10-----18--------||
------11--11-------------------||
--13---------------------------||
-------------------------------||
-------------------------------||
-------------------------------||


Основная тема :
00:09
----------------------|--------------------------|--------------------------|
----------------------|--------------------------|--------------------------|
----------------------|--------------------------|--------------------------|
----------------------|-----------2--------------|-----2--------------------|
6~~~------2--4--2--1--|--2--1--------------2-----|--------------2--4--2--1--|
4~~~------------------|--------4-----4--4-----4--|--4-----4--4--------------|



----------------------|----------------------|--------------------------|
----------------------|----------------------|--------------------------|
----------------------|----------------------|--------------------------|
-----------6----------|----------------------|-----------2--------------|
--2--1-----6----------|-------------4--2--1--|--2--1--------------2-----|
--------4--4----------|----------7-----------|--------4-----4--4-----4--|


00:16 Never die...
--------------------------|----------------------|----------------------|
--------------------------|----------------------|----------------------|
--------------------------|----------------------|----------------------|
-----2--------------------|-----------6----------|----------------------|
--------------2--4--2--1--|--2--1-----6----------|-------------4--2--1--|
--4-----4--4--------------|--------4--4----------|----------7-----------|



--------------------------|--------------------------|----------------------|
--------------------------|--------------------------|----------------------|
--------------------------|--------------------------|----------------------|
-----------2--------------|-----2--------------------|-----------6----------|
--2--1--------------2-----|--------------2--4--2--1--|--2--1-----6----------|
--------4-----4--4-----4--|--4-----4--4--------------|--------4--4----------|



--------------------------|--------------------------|
--------------------------|--------------------------|
--------------------------|--------------------------|
--------------------------|-----------2--------------|
--------------2--4--2--1--|--2--1--------------2-----|
--4--4--4--4--------------|--------4-----4--4-----4--|



--------------------------|----------------------|--------------------------|
--------------------------|----------------------|--------------------------|
--------------------------|----------------------|--------------------------|
-----2--------------------|-----------6----------|--------------------------|
--------------2--4--2--1--|--2--1-----6----------|--------------2--4--2--1--|
--4-----4--4--------------|--------4--4----------|--4--4--4--4--------------|



--------------------------|--------------------------|----------------------|
--------------------------|--------------------------|----------------------|
--------------------------|--------------------------|----------------------|
-----------2--------------|-----2--------------------|-----------6----------|
--2--1--------------2-----|--------------2--4--2--1--|--2--1-----6----------|
--------4-----4--4-----4--|--4-----4--4--------------|--------4--4----------|



--------------------------|--------------------------|
--------------------------|--------------------------|
--------------------------|--------------------------|
--------------------------|-----------2--------------|
--------------2--4--2--1--|--2--1--------------2-----|
--4--4--4--4--------------|--------4-----4--4-----4--|



--------------------------|----------------------|------------------|
--------------------------|----------------------|------------------|
--------------------------|----------------------|------------------|
-----2--------------------|-----------6----------|------------------|
--------------2--4--2--1--|--2--1-----6----------|------------------|
--4-----4--4--------------|--------4--4----------|------------------| и т.д. в том же духе.

[...................................................................
Forever and ever
My spirit will soar
Journey without end
--------------------------|-----------------0--------|-------------------|
--------------------------|--------0--2--4-----4-----|--0----------------|
-----------------------0--|--1--3--------------------|--1----------------|
-----------------1--2-----|--------------------------|--2----------------|
--------1--2--4-----------|--------------------------|--2----------------|
--3--4--------------------|--------------------------|--0----------------|
You mortal fools
Keep fighting your wars
But you cannot win
Like the sky
I´m perpetual, I´ll never die

Don´t come and tell me
Your life is so rough
Nothing for nothing
No walls in this world
Will heed you enough
I´ll get what i want
Like the sky
I´m perpetual , I´ll never die...
...................................................................]

Your gods may come and go
Eons may pass
But in the end i know
I shall forever last...


Основное соло

01:59
--9-11-9-7-6-4-2-1-6-4-2-1---------|--------------------0---------|
---------------------------4-2-0---|--4-2-0-------0-2-4---4-2-4-2-|
---------------------------------3-|--------3-1-3-----------------|
-----------------------------------|------------------------------|
-----------------------------------|------------------------------|
-----------------------------------|------------------------------|


b
------------1---------1-2-4-6-|--9-11-12-11-9-7-6----23------|
--0---0-2-4-----0-2-4---------|-------------------7----------|
----3---------3---------------|------------------------------|
------------------------------|------------------------------|
------------------------------|------------------------------|
------------------------------|------------------------------|


b b
--------------------------23------|-----------------------23--------|
----------------------------------|---------------------------------|
----20-21-20-18-16-15-13----------|--20-21-20-18-16-15-13-----------|
----------------------------------|---------------------------------|
----------------------------------|---------------------------------|
----------------------------------|---------------------------------|



------------------|------------------|--9-11-12-11-9-7-6-4-3-4-6-4-3-0-----|
------------------|------------------|---------------------------------4-2-|
------------------|------------------|-------------------------------------|
------------------|------------------|-------------------------------------|
------------------|------------------|-------------------------------------|
------------------|------------------|-------------------------------------|



----------------------------0-|------0---------------------------|
--0-4-2-0-2-0-------0-2-2-4---|--4-2---4-2-4-2-0-----0-----------|
--------------3-1-3-----------|------------------3-1---3-1-0-----|
------------------------------|------------------------------2-1-|
------------------------------|----------------------------------|
------------------------------|----------------------------------|



----------------------------------|----------------------------|
----------------------------------|----------------------------|
--1-0-----0-----------------------|--------------------0-1-3-3-|
------2-1---2-1---2-1-----1-------|----------------1-2---------|
----------------4-----4-2---4-2-1-|----1-2---1-2-4-------------|
----------------------------------|--4-----4-------------------|


b
------------0-1---------1-2-4-6-|--6-7-9-11-12-11-9-7-6--23------|
------0-2-4-------0-2-4---------|--------------------------------|
--1-3-----------3---------------|--------------------------------|
--------------------------------|--------------------------------|
--------------------------------|--------------------------------|
--------------------------------|--------------------------------|


02:14
------------------|--16----15-16-15----18----15-16-15----|
------------------|-----17----------17----17----------17-|
------------------|--------------------------------------|
------------------|--------------------------------------|
------------------|--------------------------------------|
------------------|--------------------------------------|



--16----15-16-15----18----15-16-15----|
-----17----------17----17----------17-|
--------------------------------------|
--------------------------------------|
--------------------------------------|
--------------------------------------|



--18-15-16-18-19-18-16-15-18-15-16-18-16-----16-|
------------------------------------------17----|
------------------------------------------------|
------------------------------------------------|
------------------------------------------------|
------------------------------------------------|



--------15-16-15-------14-------14-12-11-9-|--12-11-9-7-11-9-7-6-9-7-6-4-7-6-4-|
--16-17----------17-16----16-17------------|-----------------------------------|
-------------------------------------------|-----------------------------------|
-------------------------------------------|-----------------------------------|
-------------------------------------------|-----------------------------------|
-------------------------------------------|-----------------------------------|



--3-2-0---4-3-2-3-4-3-6-4-|--3-2-4-3-2-4-3-2-4-2-4-3-|
--------4-----------------|--------------------------|
--------------------------|--------------------------|
--------------------------|--------------------------|
--------------------------|--------------------------|
--------------------------|--------------------------|



--2-0-----0-----------------|----------0-2-4-6-7-9-11-12-11-9-7-|
------4-2---4-2-0-------0-2-|----0-2-4--------------------------|
------------------3-1-3-----|--3--------------------------------|
----------------------------|-----------------------------------|
----------------------------|-----------------------------------|
----------------------------|-----------------------------------|



--6-4-6---------0---------------|-------0-----0-----------|
--------5-4-2-4---4-2-0-4-2-0---|---------2-4---4-2-0-----|
------------------------------3-|--1------------------1-3-|
--------------------------------|-------------------------|
--------------------------------|-------------------------|
--------------------------------|-------------------------|



--------------------------|--------0-----0-----6-3-4-|
--0-----0-----0-----0-----|--0-------2-4---4-2-------|
----1-3---1-1---1-3---1-3-|----3-1-------------------|
--------------------------|--------------------------|
--------------------------|--------------------------|
--------------------------|--------------------------|


b
--6-4-3-12-9-11-12-11-9-23----|------------------|------------------|
------------------------------|------------------|------------------|
------------------------------|------------------|------------------|
------------------------------|------------------|------------------|
------------------------------|------------------|------------------|
------------------------------|------------------|------------------|


А вот эта часть мне больше всего нравится...:)

02:30
--11-9-------7-11-9-------7-|--9-6---0---6-9-6---0---6-|
-------9---9--------9---9---|------8---8-------8---8---|
---------8------------8-----|--------------------------|
----------------------------|--------------------------|
----------------------------|--------------------------|
----------------------------|--------------------------|



--7-4-------4-7-4-------4-|--6-3-0---0-3-6-3-0---0-3-|
------4---4-------4---4---|--------2-----------2-----|
--------4-----------4-----|--------------------------|
--------------------------|--------------------------|
--------------------------|--------------------------|
--------------------------|--------------------------|



--9-6---0---6-9-6---0---6-|--11-9-------7-11-9-------7-|
------8---8-------8---8---|-------9---9--------9---9---|
--------------------------|---------8------------8-----|
--------------------------|----------------------------|
--------------------------|----------------------------|
--------------------------|----------------------------|


b
--13-10------7-10-13-10------7-10-|--15----------------|
--------12-9------------12-9------|--------------------|
----------------------------------|--------------------|
----------------------------------|--------------------|
----------------------------------|--------------------|
----------------------------------|--------------------|



--------------------11-9-------7-|--9-6---0---6-9-6---0---6-|
--16-14----------12------9---9---|------8---8-------8---8---|
--------13----13-----------8-----|--------------------------|
-----------13--------------------|--------------------------|
---------------------------------|--------------------------|
---------------------------------|--------------------------|



--7-4-------4-7-4-------4-|--6-3-0---0-3-6-3-0---0-3-|
------4---4-------4---4---|--------2-----------2-----|
--------4-----------4-----|--------------------------|
--------------------------|--------------------------|
--------------------------|--------------------------|
--------------------------|--------------------------|



--9-6---0---6-9-6---0---6-|--11-9-------7-11-9-------7-|
------8---8-------8---8---|-------9---9--------9---9---|
--------------------------|---------8------------8-----|
--------------------------|----------------------------|
--------------------------|----------------------------|
--------------------------|----------------------------|


02:48
--13-10------7-10-13-10------7-10-|--------------------|--------------------|
--------12-9------------12-9------|--------------------|--0-----------------|
----------------------------------|--8--------6--------|-----------3--------|
----------------------------------|--------------------|--------------------|
----------------------------------|--------------------|--------------------|
----------------------------------|--------------------|--------------------|

Все замечания присылайте на gackt@ua.fm
Yngwie Malmsteen - Never Die аккорд песни