Среда, 30.09.2020, 01:47
Популярные аккорды
   Аккорды песен Башкирия (3666)
   Аккорды песен 5nizza - Пятница (2846)
   Аккорды песен Я у девушка юный бил ночью в гостях... (2236)
   Аккорды песен Вот идет караван... (2191)
   Аккорды песен Лесоповал - Я куплю тебе дом (Белый лебедь) (2092)
   Аккорды песен Дворовые песни - Казахи (1929)
   Аккорды песен Тема из к/ф "Джентльмены удачи" (1691)
   Аккорды песен Дoждь cтyчит пo кpышaм, cлoвнo мнe нaзлo (1649)
   Аккорды песен Агата Кристи - Как на войне (1559)
   Аккорды песен Кабриолет - Цепи (1528)
Поиск
Статистика

Добавлено аккордов: 2102



Аккорды к песням нашим


0-9 - A - B - C - D - E - F - G - H - I - J - K - L - M - N - O - P - Q - R - S - T - U - V - W - X - Y - Z
А - Б - В - Г - Д - Е - Ж - З - И - К - Л - М - Н - О - П - Р - С - Т - У - Ф - Х - Ц - Ч - Ш - Щ - Э - Ю - Я

Аккорд песни Зинчук Виктор - Mix №1
Просмотров: 255
Дата добавления: 09.06.2010
Категория: З
s-(staccato)
s s s
E||---------------------
B||-12-10-12------------
G||----------11-9Н11----
D||------------------9-- 2 раза
A||---------------------
D||---------------------

E||----9-10--9h10-9-9--9-7h9-7-7-7-5h7-5-5- 7- при повторе 9-
B||-12------------------------------------- -- -
G||---------------------------------------- -- -
D||---------------------------------------- --
A||---------------------------------------- --
D||---------------------------------------- --

Это два раза

s s s
E||--14-12-14--------------
B||-----------14-12h14-----
G||--------------------11-- 2 раза
D||------------------------
A||------------------------
D||------------------------

E||--14-16-17--16h17--16—16-16-14h16—14-14-14-12h14-12-12-14--
B||-----------------------------------------------------------
G||-----------------------------------------------------------
D||-----------------------------------------------------------
A||-----------------------------------------------------------
D||-----------------------------------------------------------

Подобрал это Сливний Павел(Pal1).Вопросы, пожелания и т.п. присылайте
По адресу Palpal@cards.lanck.net
Зинчук Виктор - Mix №1 аккорд песни