Пятница, 25.09.2020, 19:31
Популярные аккорды
   Аккорды песен Башкирия (3664)
   Аккорды песен 5nizza - Пятница (2845)
   Аккорды песен Я у девушка юный бил ночью в гостях... (2234)
   Аккорды песен Вот идет караван... (2188)
   Аккорды песен Лесоповал - Я куплю тебе дом (Белый лебедь) (2088)
   Аккорды песен Дворовые песни - Казахи (1927)
   Аккорды песен Тема из к/ф "Джентльмены удачи" (1687)
   Аккорды песен Дoждь cтyчит пo кpышaм, cлoвнo мнe нaзлo (1648)
   Аккорды песен Агата Кристи - Как на войне (1558)
   Аккорды песен Кабриолет - Цепи (1524)
Поиск
Статистика

Добавлено аккордов: 2102



Аккорды к песням нашим


0-9 - A - B - C - D - E - F - G - H - I - J - K - L - M - N - O - P - Q - R - S - T - U - V - W - X - Y - Z
А - Б - В - Г - Д - Е - Ж - З - И - К - Л - М - Н - О - П - Р - С - Т - У - Ф - Х - Ц - Ч - Ш - Щ - Э - Ю - Я

Аккорд песни Зинчук Виктор - Scherzo H-minor
Просмотров: 267
Дата добавления: 09.06.2010
Категория: З
из альбома Neoclassic

В такой аппликатуре можно достичь приличной скорости.

Исправления присылайте на gackt@ua.fm


E||--7--10-7----------------------|--------------------------------|
B||----------7--12-7--------------|--------------------------------|
G||------------------7--11-7------|----4-7-4-6-4-6-4---6-9-6-7-----|
D||--------------------------9----|--4---------------7----------9--|
A||-------------------------------|--------------------------------|
E||-------------------------------|--------------------------------|



--7--10-7----------------------|----------------7--------------|
----------7--12-7--------------|-------------------------------|
------------------7--11-7------|--7-6-7--7-6-7-----7--7-9-7-6--|
--------------------------9----|-------------------------------|
-------------------------------|-------------------------------|
-------------------------------|-------------------------------|



----------------10--------------|---------------------------------------|
--7-6-7--7-6-7------7--7-9-7-6--|----7-10-7-9-7-9-7----9-12-9-10-9-10-9-|
--------------------------------|--6----------------10------------------|
--------------------------------|---------------------------------------|
--------------------------------|---------------------------------------|
--------------------------------|---------------------------------------|



-----------------------------9----------10-------|
-----10----------12------------------------------|
--11----11-10-11----11-10-11---11-10-11----11-10-|
-------------------------------------------------|
-------------------------------------------------|
-------------------------------------------------|



-----10-9----9--------------------------|--7-7-10-7------------------------|
----------12---10-9----10--9-10-9-------|-----------7-7-12-7---------------|
--11----------------11------------11----|--------------------7-7-11-7------|
----------------------------------------|-----------------------------9----|
----------------------------------------|----------------------------------|
----------------------------------------|----------------------------------|



--------------------------------|--7--10-9-7---------------------------|
--------------------------------|------------7--12-10-7----------------|
----4-7-4-6-4-6-4---6-9-6-7-----|-----------------------7--11-9-7------|
--4---------------7----------9--|---------------------------------9----|
--------------------------------|--------------------------------------|
--------------------------------|--------------------------------------|



----------------7--------------|----------------10--------------|
-------------------------------|--7-6-7--7-6-7------7--7-9-7-6--|
--7-6-7--7-6-7-----7--7-9-7-6--|--------------------------------|
-------------------------------|--------------------------------|
-------------------------------|--------------------------------|
-------------------------------|--------------------------------|



---------------------------------------|
----7-10-7-9-7-9-7----9-12-9-10-9-10-9-|
--6----------------10------------------|
---------------------------------------|
---------------------------------------|
---------------------------------------|



-----------------------------9----------10-------|
-----10----------12------------------------------|
--11----11-10-11----11-10-11---11-10-11----11-10-|
-------------------------------------------------|
-------------------------------------------------|
-------------------------------------------------|



-----10-9----9--------------------------|-------------------------------|
----------12---10-9----10--9-10-9-------|--7--10-7----------------------|
--11----------------11------------11----|----------6--11-6--------------|
----------------------------------------|------------------7--11-7------|
----------------------------------------|--------------------------9----|
----------------------------------------|-------------------------------|



---------------5------------|-------------------------------|
--------5--0-7----8-7-8--5--|--8--12-8----------------------|
--5--4----------------------|----------9--12-9-----9-6------|
----------------------------|------------------11------7----|
----------------------------|-------------------------------|
----------------------------|-------------------------------|



----------------------------------|--------------------5-------7-----|
------7-------------5-8-5-7-5-7-5-|----7-------8---------------------|
----7---7-9-7-9-7-6---------------|--7---7-6-7---7-6-7---7-6-7---7-6-|
--7-------------------------------|----------------------------------|
----------------------------------|----------------------------------|
----------------------------------|----------------------------------|
[p.m.....]


----7-5---5---------------------|----------------10--------------|
--------8---7-5---7--5-7-5------|--7-5-7--7-5-7------7--7-8-7-5--|
--7-------------7----------7----|--------------------------------|
--------------------------------|--------------------------------|
--------------------------------|--------------------------------|
--------------------------------|--------------------------------|



----------------9---------------|--7--10-7---------7-------------|
--------------------------------|----------10-8------10-8-7------|
--9-7-9--9-7-9-----9--9-11-9-7--|---------------------------9----|
--------------------------------|--------------------------------|
--------------------------------|--------------------------------|
--------------------------------|--------------------------------|



-----------------------------------|---------------------------2-|
--8-7-5-----5-8-5------------------|----------2-5-3-2-3--2-3-5---|
--------7-5-------5-4-5-4-3--------|-----4--3--------------------|
-----------------------------4--5--|--4--------------------------|
-----------------------------------|-----------------------------|
-----------------------------------|-----------------------------|



-------7--------------------|
--3/7-----7--5--------------|
---------------7-6-7-6-4----|
----------------------------|
----------------------------|
----------------------------|
Зинчук Виктор - Scherzo H-minor аккорд песни